ISO-10303-21;
HEADER;
FILE_DESCRIPTION (( 'STEP AP203' ),
    '1' );
FILE_NAME ('AL–D28õ3–À-3 Òðóáà àëþìèíèåâàÿ D28õ3 àíîäèðîâàííàÿ.STEP',
    '2023-09-12T10:53:05',
    ( '' ),
    ( '' ),
    'SwSTEP 2.0',
    'SolidWorks 2021',
    '' );
FILE_SCHEMA (( 'CONFIG_CONTROL_DESIGN' ));
ENDSEC;

DATA;
#1 = CARTESIAN_POINT ( 'NONE',  ( 0.000000000000000000, 0.000000000000000000, 0.000000000000000000 ) ) ;
#2 = FACE_BOUND ( 'NONE', #54, .T. ) ;
#3 = EDGE_CURVE ( 'NONE', #150, #212, #82, .T. ) ;
#4 = CARTESIAN_POINT ( 'NONE',  ( 0.000000000000000000, 0.000000000000000000, 0.000000000000000000 ) ) ;
#5 = FACE_OUTER_BOUND ( 'NONE', #148, .T. ) ;
#6 = COORDINATED_UNIVERSAL_TIME_OFFSET ( 3, 0, .AHEAD. ) ;
#7 = AXIS2_PLACEMENT_3D ( 'NONE', #21, #42, #217 ) ;
#8 = MECHANICAL_CONTEXT ( 'NONE', #161, 'mechanical' ) ;
#9 = CC_DESIGN_PERSON_AND_ORGANIZATION_ASSIGNMENT ( #184, #68, ( #192 ) ) ;
#10 = CARTESIAN_POINT ( 'NONE',  ( 0.000000000000000000, 0.000000000000000000, 3000.000000000000000 ) ) ;
#11 = DESIGN_CONTEXT ( 'detailed design', #215, 'design' ) ;
#12 = EDGE_CURVE ( 'NONE', #212, #56, #235, .T. ) ;
#13 = APPROVAL_PERSON_ORGANIZATION ( #40, #210, #38 ) ;
#14 = APPROVAL_STATUS ( 'not_yet_approved' ) ;
#15 = ORIENTED_EDGE ( 'NONE', *, *, #3, .F. ) ;
#16 = VERTEX_POINT ( 'NONE', #20 ) ;
#17 = AXIS2_PLACEMENT_3D ( 'NONE', #158, #180, #218 ) ;
#18 = ORIENTED_EDGE ( 'NONE', *, *, #119, .T. ) ;
#19 = ORIENTED_EDGE ( 'NONE', *, *, #67, .F. ) ;
#20 = CARTESIAN_POINT ( 'NONE',  ( 14.00000000000000178, 1.714505518806294835E-15, 3000.000000000000000 ) ) ;
#21 = CARTESIAN_POINT ( 'NONE',  ( 0.000000000000000000, 0.000000000000000000, 0.000000000000000000 ) ) ;
#22 = FACE_BOUND ( 'NONE', #232, .T. ) ;
#23 = DIRECTION ( 'NONE',  ( 1.000000000000000000, 0.000000000000000000, -0.000000000000000000 ) ) ;
#24 = CYLINDRICAL_SURFACE ( 'NONE', #104, 11.00000000000000000 ) ;
#25 = FACE_OUTER_BOUND ( 'NONE', #113, .T. ) ;
#26 = CC_DESIGN_DATE_AND_TIME_ASSIGNMENT ( #225, #106, ( #192 ) ) ;
#27 = CARTESIAN_POINT ( 'NONE',  ( 0.000000000000000000, 0.000000000000000000, 0.000000000000000000 ) ) ;
#28 = APPROVAL_PERSON_ORGANIZATION ( #124, #142, #69 ) ;
#29 = EDGE_CURVE ( 'NONE', #173, #56, #249, .T. ) ;
#30 = APPLICATION_PROTOCOL_DEFINITION ( 'international standard', 'config_control_design', 1994, #215 ) ;
#31 = DIRECTION ( 'NONE',  ( -0.000000000000000000, -0.000000000000000000, -1.000000000000000000 ) ) ;
#32 = AXIS2_PLACEMENT_3D ( 'NONE', #201, #223, #60 ) ;
#33 = DATE_AND_TIME ( #216, #85 ) ;
#34 = ORIENTED_EDGE ( 'NONE', *, *, #185, .F. ) ;
#35 = ORIENTED_EDGE ( 'NONE', *, *, #145, .T. ) ;
#36 = CLOSED_SHELL ( 'NONE', ( #231, #166, #110, #213, #74, #90 ) ) ;
#37 = DIRECTION ( 'NONE',  ( -0.000000000000000000, -0.000000000000000000, -1.000000000000000000 ) ) ;
#38 = APPROVAL_ROLE ( '' ) ;
#39 = LINE ( 'NONE', #117, #245 ) ;
#40 = PERSON_AND_ORGANIZATION ( #114, #121 ) ;
#41 = LOCAL_TIME ( 13, 53, 5.000000000000000000, #143 ) ;
#42 = DIRECTION ( 'NONE',  ( 0.000000000000000000, 0.000000000000000000, 1.000000000000000000 ) ) ;
#43 = DIRECTION ( 'NONE',  ( 1.000000000000000000, 0.000000000000000000, 0.000000000000000000 ) ) ;
#44 = CARTESIAN_POINT ( 'NONE',  ( 0.000000000000000000, 0.000000000000000000, 0.000000000000000000 ) ) ;
#45 = LINE ( 'NONE', #160, #190 ) ;
#46 = CC_DESIGN_APPROVAL ( #210, ( #88 ) ) ;
#47 = PERSON_AND_ORGANIZATION ( #114, #121 ) ;
#48 = EDGE_CURVE ( 'NONE', #52, #127, #196, .T. ) ;
#49 = VECTOR ( 'NONE', #37, 1000.000000000000000 ) ;
#50 = UNCERTAINTY_MEASURE_WITH_UNIT (LENGTH_MEASURE( 1.000000000000000082E-05 ), #107, 'distance_accuracy_value', 'NONE');
#51 = CALENDAR_DATE ( 2023, 12, 9 ) ;
#52 = VERTEX_POINT ( 'NONE', #61 ) ;
#53 = CIRCLE ( 'NONE', #17, 14.00000000000000178 ) ;
#54 = EDGE_LOOP ( 'NONE', ( #246, #15 ) ) ;
#55 = ORIENTED_EDGE ( 'NONE', *, *, #185, .T. ) ;
#56 = VERTEX_POINT ( 'NONE', #83 ) ;
#57 = EDGE_CURVE ( 'NONE', #16, #52, #39, .T. ) ;
#58 = PRODUCT_DEFINITION_FORMATION_WITH_SPECIFIED_SOURCE ( 'ANY', '', #203, .NOT_KNOWN. ) ;
#59 = ORIENTED_EDGE ( 'NONE', *, *, #48, .T. ) ;
#60 = DIRECTION ( 'NONE',  ( 1.000000000000000000, 0.000000000000000000, -0.000000000000000000 ) ) ;
#61 = CARTESIAN_POINT ( 'NONE',  ( 14.00000000000000178, 1.714505518806294835E-15, 0.000000000000000000 ) ) ;
#62 = CARTESIAN_POINT ( 'NONE',  ( 0.000000000000000000, 0.000000000000000000, 3000.000000000000000 ) ) ;
#63 = DIRECTION ( 'NONE',  ( 0.000000000000000000, 0.000000000000000000, 1.000000000000000000 ) ) ;
#64 = DIRECTION ( 'NONE',  ( 1.000000000000000000, 0.000000000000000000, 0.000000000000000000 ) ) ;
#65 = CIRCLE ( 'NONE', #240, 14.00000000000000178 ) ;
#66 = CC_DESIGN_PERSON_AND_ORGANIZATION_ASSIGNMENT ( #94, #169, ( #88 ) ) ;
#67 = EDGE_CURVE ( 'NONE', #150, #173, #45, .T. ) ;
#68 = PERSON_AND_ORGANIZATION_ROLE ( 'creator' ) ;
#69 = APPROVAL_ROLE ( '' ) ;
#70 = AXIS2_PLACEMENT_3D ( 'NONE', #101, #140, #64 ) ;
#71 = CYLINDRICAL_SURFACE ( 'NONE', #205, 11.00000000000000000 ) ;
#72 = ORIENTED_EDGE ( 'NONE', *, *, #67, .T. ) ;
#73 = ORIENTED_EDGE ( 'NONE', *, *, #48, .F. ) ;
#74 = ADVANCED_FACE ( 'NONE', ( #115 ), #139, .T. ) ;
#75 = ORIENTED_EDGE ( 'NONE', *, *, #157, .T. ) ;
#76 = DIRECTION ( 'NONE',  ( 1.000000000000000000, 0.000000000000000000, 0.000000000000000000 ) ) ;
#77 = CARTESIAN_POINT ( 'NONE',  ( 0.000000000000000000, 0.000000000000000000, 3000.000000000000000 ) ) ;
#78 = DATE_AND_TIME ( #147, #165 ) ;
#79 = DIRECTION ( 'NONE',  ( -0.000000000000000000, -0.000000000000000000, -1.000000000000000000 ) ) ;
#80 = COORDINATED_UNIVERSAL_TIME_OFFSET ( 3, 0, .AHEAD. ) ;
#81 = DIRECTION ( 'NONE',  ( -0.000000000000000000, -0.000000000000000000, -1.000000000000000000 ) ) ;
#82 = CIRCLE ( 'NONE', #112, 11.00000000000000000 ) ;
#83 = CARTESIAN_POINT ( 'NONE',  ( -11.00000000000000000, 0.000000000000000000, 0.000000000000000000 ) ) ;
#84 = DIRECTION ( 'NONE',  ( 1.000000000000000000, 0.000000000000000000, 0.000000000000000000 ) ) ;
#85 = LOCAL_TIME ( 13, 53, 5.000000000000000000, #144 ) ;
#86 = ADVANCED_BREP_SHAPE_REPRESENTATION ( 'ALÖD28¿3ÖL-3 T¨ºñð ðû¦üøýøõòð  D28¿3 ðýþôø¨þòðýýð ', ( #103, #135 ), #93 ) ;
#87 =( NAMED_UNIT ( * ) SI_UNIT ( $, .STERADIAN. ) SOLID_ANGLE_UNIT ( ) );
#88 = SECURITY_CLASSIFICATION ( '', '', #149 ) ;
#89 = SHAPE_DEFINITION_REPRESENTATION ( #163, #86 ) ;
#90 = ADVANCED_FACE ( 'NONE', ( #237 ), #24, .F. ) ;
#91 = EDGE_LOOP ( 'NONE', ( #18, #72, #248, #187 ) ) ;
#92 = CARTESIAN_POINT ( 'NONE',  ( 0.000000000000000000, 0.000000000000000000, 3000.000000000000000 ) ) ;
#93 =( GEOMETRIC_REPRESENTATION_CONTEXT ( 3 ) GLOBAL_UNCERTAINTY_ASSIGNED_CONTEXT ( ( #50 ) ) GLOBAL_UNIT_ASSIGNED_CONTEXT ( ( #107, #105, #87 ) ) REPRESENTATION_CONTEXT ( 'NONE', 'WORKASPACE' ) );
#94 = PERSON_AND_ORGANIZATION ( #114, #121 ) ;
#95 = DIRECTION ( 'NONE',  ( -0.000000000000000000, -0.000000000000000000, -1.000000000000000000 ) ) ;
#96 = APPROVAL ( #102, 'UNSPECIFIED' ) ;
#97 = DIRECTION ( 'NONE',  ( -0.000000000000000000, -0.000000000000000000, -1.000000000000000000 ) ) ;
#98 = EDGE_CURVE ( 'NONE', #127, #52, #226, .T. ) ;
#99 = AXIS2_PLACEMENT_3D ( 'NONE', #62, #122, #162 ) ;
#100 = CARTESIAN_POINT ( 'NONE',  ( -14.00000000000000178, 0.000000000000000000, 3000.000000000000000 ) ) ;
#101 = CARTESIAN_POINT ( 'NONE',  ( 0.000000000000000000, 0.000000000000000000, 0.000000000000000000 ) ) ;
#102 = APPROVAL_STATUS ( 'not_yet_approved' ) ;
#103 = MANIFOLD_SOLID_BREP ( 'Áîáûøêà-Âûòÿíóòü1', #36 ) ;
#104 = AXIS2_PLACEMENT_3D ( 'NONE', #221, #81, #242 ) ;
#105 =( NAMED_UNIT ( * ) PLANE_ANGLE_UNIT ( ) SI_UNIT ( $, .RADIAN. ) );
#106 = DATE_TIME_ROLE ( 'creation_date' ) ;
#107 =( LENGTH_UNIT ( ) NAMED_UNIT ( * ) SI_UNIT ( .MILLI., .METRE. ) );
#108 = PRODUCT_RELATED_PRODUCT_CATEGORY ( 'detail', '', ( #203 ) ) ;
#109 = APPROVAL_DATE_TIME ( #211, #210 ) ;
#110 = ADVANCED_FACE ( 'NONE', ( #25, #2 ), #138, .T. ) ;
#111 = EDGE_LOOP ( 'NONE', ( #189, #73 ) ) ;
#112 = AXIS2_PLACEMENT_3D ( 'NONE', #92, #174, #76 ) ;
#113 = EDGE_LOOP ( 'NONE', ( #171, #75 ) ) ;
#114 = PERSON ( 'UNSPECIFIED', 'UNSPECIFIED', 'UNSPECIFIED', ('UNSPECIFIED'), ('UNSPECIFIED'), ('UNSPECIFIED') ) ;
#115 = FACE_OUTER_BOUND ( 'NONE', #129, .T. ) ;
#116 = CC_DESIGN_PERSON_AND_ORGANIZATION_ASSIGNMENT ( #132, #178, ( #58 ) ) ;
#117 = CARTESIAN_POINT ( 'NONE',  ( 14.00000000000000178, 1.714505518806294835E-15, 3000.000000000000000 ) ) ;
#118 = DIRECTION ( 'NONE',  ( -1.000000000000000000, 0.000000000000000000, 0.000000000000000000 ) ) ;
#119 = EDGE_CURVE ( 'NONE', #212, #150, #219, .T. ) ;
#120 = DIRECTION ( 'NONE',  ( 1.000000000000000000, 0.000000000000000000, 0.000000000000000000 ) ) ;
#121 = ORGANIZATION ( 'UNSPECIFIED', 'UNSPECIFIED', '' ) ;
#122 = DIRECTION ( 'NONE',  ( -0.000000000000000000, -0.000000000000000000, -1.000000000000000000 ) ) ;
#123 = CALENDAR_DATE ( 2023, 12, 9 ) ;
#124 = PERSON_AND_ORGANIZATION ( #114, #121 ) ;
#125 = PERSON_AND_ORGANIZATION ( #114, #121 ) ;
#126 = LOCAL_TIME ( 13, 53, 5.000000000000000000, #6 ) ;
#127 = VERTEX_POINT ( 'NONE', #181 ) ;
#128 = VERTEX_POINT ( 'NONE', #100 ) ;
#129 = EDGE_LOOP ( 'NONE', ( #175, #191, #55, #152 ) ) ;
#130 = VECTOR ( 'NONE', #95, 1000.000000000000000 ) ;
#131 = CARTESIAN_POINT ( 'NONE',  ( -11.00000000000000000, 0.000000000000000000, 3000.000000000000000 ) ) ;
#132 = PERSON_AND_ORGANIZATION ( #114, #121 ) ;
#133 = CARTESIAN_POINT ( 'NONE',  ( -11.00000000000000000, 0.000000000000000000, 3000.000000000000000 ) ) ;
#134 = CARTESIAN_POINT ( 'NONE',  ( 11.00000000000000000, 1.347111479062088405E-15, 3000.000000000000000 ) ) ;
#135 = AXIS2_PLACEMENT_3D ( 'NONE', #27, #243, #202 ) ;
#136 = DATE_TIME_ROLE ( 'classification_date' ) ;
#137 = CC_DESIGN_PERSON_AND_ORGANIZATION_ASSIGNMENT ( #168, #164, ( #203 ) ) ;
#138 = PLANE ( 'NONE',  #32 ) ;
#139 = CYLINDRICAL_SURFACE ( 'NONE', #99, 14.00000000000000178 ) ;
#140 = DIRECTION ( 'NONE',  ( 0.000000000000000000, 0.000000000000000000, 1.000000000000000000 ) ) ;
#141 = AXIS2_PLACEMENT_3D ( 'NONE', #179, #220, #43 ) ;
#142 = APPROVAL ( #167, 'UNSPECIFIED' ) ;
#143 = COORDINATED_UNIVERSAL_TIME_OFFSET ( 3, 0, .AHEAD. ) ;
#144 = COORDINATED_UNIVERSAL_TIME_OFFSET ( 3, 0, .AHEAD. ) ;
#145 = EDGE_CURVE ( 'NONE', #56, #173, #214, .T. ) ;
#146 = DIRECTION ( 'NONE',  ( -1.000000000000000000, 0.000000000000000000, 0.000000000000000000 ) ) ;
#147 = CALENDAR_DATE ( 2023, 12, 9 ) ;
#148 = EDGE_LOOP ( 'NONE', ( #193, #209, #59, #34 ) ) ;
#149 = SECURITY_CLASSIFICATION_LEVEL ( 'unclassified' ) ;
#150 = VERTEX_POINT ( 'NONE', #134 ) ;
#151 = ORIENTED_EDGE ( 'NONE', *, *, #29, .T. ) ;
#152 = ORIENTED_EDGE ( 'NONE', *, *, #98, .T. ) ;
#153 = CC_DESIGN_APPROVAL ( #96, ( #192 ) ) ;
#154 = CARTESIAN_POINT ( 'NONE',  ( 11.00000000000000000, 1.347111479062088405E-15, 0.000000000000000000 ) ) ;
#155 = APPROVAL_DATE_TIME ( #33, #142 ) ;
#156 = LINE ( 'NONE', #236, #130 ) ;
#157 = EDGE_CURVE ( 'NONE', #16, #128, #53, .T. ) ;
#158 = CARTESIAN_POINT ( 'NONE',  ( 0.000000000000000000, 0.000000000000000000, 3000.000000000000000 ) ) ;
#159 = AXIS2_PLACEMENT_3D ( 'NONE', #4, #63, #120 ) ;
#160 = CARTESIAN_POINT ( 'NONE',  ( 11.00000000000000000, 1.347111479062088405E-15, 3000.000000000000000 ) ) ;
#161 = APPLICATION_CONTEXT ( 'configuration controlled 3d designs of mechanical parts and assemblies' ) ;
#162 = DIRECTION ( 'NONE',  ( -1.000000000000000000, 0.000000000000000000, 0.000000000000000000 ) ) ;
#163 = PRODUCT_DEFINITION_SHAPE ( 'NONE', 'NONE',  #192 ) ;
#164 = PERSON_AND_ORGANIZATION_ROLE ( 'design_owner' ) ;
#165 = LOCAL_TIME ( 13, 53, 5.000000000000000000, #80 ) ;
#166 = ADVANCED_FACE ( 'NONE', ( #5 ), #195, .T. ) ;
#167 = APPROVAL_STATUS ( 'not_yet_approved' ) ;
#168 = PERSON_AND_ORGANIZATION ( #114, #121 ) ;
#169 = PERSON_AND_ORGANIZATION_ROLE ( 'classification_officer' ) ;
#170 = PERSON_AND_ORGANIZATION_ROLE ( 'design_supplier' ) ;
#171 = ORIENTED_EDGE ( 'NONE', *, *, #222, .T. ) ;
#172 = LOCAL_TIME ( 13, 53, 5.000000000000000000, #230 ) ;
#173 = VERTEX_POINT ( 'NONE', #154 ) ;
#174 = DIRECTION ( 'NONE',  ( 0.000000000000000000, 0.000000000000000000, 1.000000000000000000 ) ) ;
#175 = ORIENTED_EDGE ( 'NONE', *, *, #57, .F. ) ;
#176 = AXIS2_PLACEMENT_3D ( 'NONE', #77, #239, #118 ) ;
#177 = FACE_OUTER_BOUND ( 'NONE', #111, .T. ) ;
#178 = PERSON_AND_ORGANIZATION_ROLE ( 'creator' ) ;
#179 = CARTESIAN_POINT ( 'NONE',  ( 0.000000000000000000, 0.000000000000000000, 3000.000000000000000 ) ) ;
#180 = DIRECTION ( 'NONE',  ( 0.000000000000000000, 0.000000000000000000, 1.000000000000000000 ) ) ;
#181 = CARTESIAN_POINT ( 'NONE',  ( -14.00000000000000178, 0.000000000000000000, 0.000000000000000000 ) ) ;
#182 = APPROVAL_ROLE ( '' ) ;
#183 = CC_DESIGN_SECURITY_CLASSIFICATION ( #88, ( #58 ) ) ;
#184 = PERSON_AND_ORGANIZATION ( #114, #121 ) ;
#185 = EDGE_CURVE ( 'NONE', #128, #127, #156, .T. ) ;
#186 = APPROVAL_PERSON_ORGANIZATION ( #47, #96, #182 ) ;
#187 = ORIENTED_EDGE ( 'NONE', *, *, #12, .F. ) ;
#188 = CC_DESIGN_DATE_AND_TIME_ASSIGNMENT ( #78, #136, ( #88 ) ) ;
#189 = ORIENTED_EDGE ( 'NONE', *, *, #98, .F. ) ;
#190 = VECTOR ( 'NONE', #97, 1000.000000000000000 ) ;
#191 = ORIENTED_EDGE ( 'NONE', *, *, #222, .F. ) ;
#192 = PRODUCT_DEFINITION ( 'UNKNOWN', '', #58, #11 ) ;
#193 = ORIENTED_EDGE ( 'NONE', *, *, #157, .F. ) ;
#194 = ORIENTED_EDGE ( 'NONE', *, *, #12, .T. ) ;
#195 = CYLINDRICAL_SURFACE ( 'NONE', #176, 14.00000000000000178 ) ;
#196 = CIRCLE ( 'NONE', #229, 14.00000000000000178 ) ;
#197 = PLANE ( 'NONE',  #234 ) ;
#198 = DIRECTION ( 'NONE',  ( 0.000000000000000000, 0.000000000000000000, 1.000000000000000000 ) ) ;
#199 = DIRECTION ( 'NONE',  ( 0.000000000000000000, 0.000000000000000000, 1.000000000000000000 ) ) ;
#200 = CC_DESIGN_APPROVAL ( #142, ( #58 ) ) ;
#201 = CARTESIAN_POINT ( 'NONE',  ( 0.000000000000000000, 0.000000000000000000, 3000.000000000000000 ) ) ;
#202 = DIRECTION ( 'NONE',  ( 1.000000000000000000, 0.000000000000000000, 0.000000000000000000 ) ) ;
#203 = PRODUCT ( 'AL–D28õ3–À-3 Òðóáà àëþìèíèåâàÿ D28õ3 àíîäèðîâàííàÿ', 'AL–D28õ3–À-3 Òðóáà àëþìèíèåâàÿ D28õ3 àíîäèðîâàííàÿ', '', ( #8 ) ) ;
#204 = DATE_AND_TIME ( #123, #126 ) ;
#205 = AXIS2_PLACEMENT_3D ( 'NONE', #10, #31, #146 ) ;
#206 = APPROVAL_DATE_TIME ( #204, #96 ) ;
#207 = CALENDAR_DATE ( 2023, 12, 9 ) ;
#208 = FACE_OUTER_BOUND ( 'NONE', #91, .T. ) ;
#209 = ORIENTED_EDGE ( 'NONE', *, *, #57, .T. ) ;
#210 = APPROVAL ( #14, 'UNSPECIFIED' ) ;
#211 = DATE_AND_TIME ( #51, #172 ) ;
#212 = VERTEX_POINT ( 'NONE', #133 ) ;
#213 = ADVANCED_FACE ( 'NONE', ( #177, #22 ), #197, .F. ) ;
#214 = CIRCLE ( 'NONE', #7, 11.00000000000000000 ) ;
#215 = APPLICATION_CONTEXT ( 'configuration controlled 3d designs of mechanical parts and assemblies' ) ;
#216 = CALENDAR_DATE ( 2023, 12, 9 ) ;
#217 = DIRECTION ( 'NONE',  ( 1.000000000000000000, 0.000000000000000000, 0.000000000000000000 ) ) ;
#218 = DIRECTION ( 'NONE',  ( 1.000000000000000000, 0.000000000000000000, 0.000000000000000000 ) ) ;
#219 = CIRCLE ( 'NONE', #141, 11.00000000000000000 ) ;
#220 = DIRECTION ( 'NONE',  ( 0.000000000000000000, 0.000000000000000000, 1.000000000000000000 ) ) ;
#221 = CARTESIAN_POINT ( 'NONE',  ( 0.000000000000000000, 0.000000000000000000, 3000.000000000000000 ) ) ;
#222 = EDGE_CURVE ( 'NONE', #128, #16, #65, .T. ) ;
#223 = DIRECTION ( 'NONE',  ( 0.000000000000000000, 0.000000000000000000, 1.000000000000000000 ) ) ;
#224 = APPLICATION_PROTOCOL_DEFINITION ( 'international standard', 'config_control_design', 1994, #161 ) ;
#225 = DATE_AND_TIME ( #207, #41 ) ;
#226 = CIRCLE ( 'NONE', #70, 14.00000000000000178 ) ;
#227 = DIRECTION ( 'NONE',  ( 1.000000000000000000, 0.000000000000000000, 0.000000000000000000 ) ) ;
#228 = EDGE_LOOP ( 'NONE', ( #19, #247, #194, #233 ) ) ;
#229 = AXIS2_PLACEMENT_3D ( 'NONE', #44, #199, #84 ) ;
#230 = COORDINATED_UNIVERSAL_TIME_OFFSET ( 3, 0, .AHEAD. ) ;
#231 = ADVANCED_FACE ( 'NONE', ( #208 ), #71, .F. ) ;
#232 = EDGE_LOOP ( 'NONE', ( #35, #151 ) ) ;
#233 = ORIENTED_EDGE ( 'NONE', *, *, #29, .F. ) ;
#234 = AXIS2_PLACEMENT_3D ( 'NONE', #1, #198, #23 ) ;
#235 = LINE ( 'NONE', #131, #49 ) ;
#236 = CARTESIAN_POINT ( 'NONE',  ( -14.00000000000000178, 0.000000000000000000, 3000.000000000000000 ) ) ;
#237 = FACE_OUTER_BOUND ( 'NONE', #228, .T. ) ;
#238 = CC_DESIGN_PERSON_AND_ORGANIZATION_ASSIGNMENT ( #125, #170, ( #58 ) ) ;
#239 = DIRECTION ( 'NONE',  ( -0.000000000000000000, -0.000000000000000000, -1.000000000000000000 ) ) ;
#240 = AXIS2_PLACEMENT_3D ( 'NONE', #241, #244, #227 ) ;
#241 = CARTESIAN_POINT ( 'NONE',  ( 0.000000000000000000, 0.000000000000000000, 3000.000000000000000 ) ) ;
#242 = DIRECTION ( 'NONE',  ( -1.000000000000000000, 0.000000000000000000, 0.000000000000000000 ) ) ;
#243 = DIRECTION ( 'NONE',  ( 0.000000000000000000, 0.000000000000000000, 1.000000000000000000 ) ) ;
#244 = DIRECTION ( 'NONE',  ( 0.000000000000000000, 0.000000000000000000, 1.000000000000000000 ) ) ;
#245 = VECTOR ( 'NONE', #79, 1000.000000000000000 ) ;
#246 = ORIENTED_EDGE ( 'NONE', *, *, #119, .F. ) ;
#247 = ORIENTED_EDGE ( 'NONE', *, *, #3, .T. ) ;
#248 = ORIENTED_EDGE ( 'NONE', *, *, #145, .F. ) ;
#249 = CIRCLE ( 'NONE', #159, 11.00000000000000000 ) ;
ENDSEC;
END-ISO-10303-21;
